PETTI MUSIC STUDIOS

  • YouTube
  • Spotify Social Icon
  • Bandcamp Social Icon
  • White Amazon Icon
  • Facebook
  • Instagram

VULPECK

SMILE MEDITATION

COVER + TAB

Artist: Vulfpeck

Album: Thrill of the Arts

Song: Smile Meditation

‚Äč

(/) Slide Up  (\) Slide Down  (h) Hammer On (p) Pull Off  (b) Bend (r) Release (v) Vibrato

 

E|--10/11\10-----------------------------------------------------------------

B|------------11-------------------------------------------------------------

G|----------------10--10h12--10------------10-------------------------10/12--

D|----------------------------------10h12------12\10--8--10/12--8------------

A|---------------------------------------------------------------------------

E|---------------------------------------------------------------------------

 

E|--10/11\10--------------------------------------------------------------------------------

B|------------11----------------------------------------------------------------------------

G|----------------10--10h12--10---------10--12--10--12/13--12--10--12---------10h12---------

D|-------------------------------10/12---------------------------------10/12---------10/12--

A|------------------------------------------------------------------------------------------

E|------------------------------------------------------------------------------------------

 

 

E|--10/11\10-----------------------------------------------------------------

B|------------11-------------------------------------------------------------

G|----------------10--10h12--10------------10-------------------------10/12--

D|----------------------------------10h12------12\10--8--10/12--8------------

A|---------------------------------------------------------------------------

E|---------------------------------------------------------------------------

 

 

E|--10/11\10---------------------------------------------------------------------------

B|------------11-----------------------------------------------------------------------

G|----------------10--10h12--10------------10--12--10--12/13--12--10--8---------10/12--

D|----------------------------------10/12--------------------------------10/12---------

A|-------------------------------------------------------------------------------------

E|-------------------------------------------------------------------------------------

 

 

E|-----------------------------------

B|------11--13--13/15--11------------

G|--12---------------------10--8--7--

D|-----------------------------------

A|-----------------------------------

E|-----------------------------------

 

 

 

E|-----------------------------13h15--13h15--

B|------11--13--13/15--11--------------------

G|--12---------------------10----------------

D|-------------------------------------------

A|-------------------------------------------

E|-------------------------------------------

 

 

 

E|--13--10h11--13-----10------------------------------------

B|-------------------------11-------------------------------

G|-----------------------------10-----8--7------------------

D|---------------------------------------------8-----10/12--

A|----------------------------------------------------------

E|----------------------------------------------------------