HAMPTON COMES ALIVE

HARRY HOOD SOLO 

Artist: Phish

Album: Hampton Comes Alive

Song: Harry Hood 

(/) Slide Up  (\) Slide Down  (h) Hammer On (p) Pull Off  (b) Bend (r) Release (v) Vibrato

 

STARTING FROM 11:32

E|----------17--17----------------17---------------------------------------------------

B|------15--------------------15------15--------------------15------15\14--------------

G|--14--------------------14-----------------18\16--14--16------16---------16--14--16--

D|-------------------------------------------------------------------------------------

A|-------------------------------------------------------------------------------------

E|-------------------------------------------------------------------------------------


 

E|------------------14---------15---------

B|--------------15------15/17------17/19--

G|------14--16----------------------------

D|--16------------------------------------

A|----------------------------------------

E|----------------------------------------


 

E|--17h19--17h19--17h19--17h19--17h19--------17h19--17------17---------17h19--17------17------

B|------------------------------------------------------19------------------------19----------

G|--------------------------------------------------------------19------------------------19--

D|--------------------------------------------------------------------------------------------

A|--------------------------------------------------------------------------------------------

E|--------------------------------------------------------------------------------------------


 

E|--17h19--17h19--17------17------------17h19--17h19--17------17--19--17------17------17------17------

B|--------------------19----------------------------------19--------------19------19------19------19--

G|----------------------------19----------------------------------------------------------------------

D|----------------------------------------------------------------------------------------------------

A|----------------------------------------------------------------------------------------------------

E|----------------------------------------------------------------------------------------------------






 

E|--17-----------------------20\

B|------------------------------

G|------------------------------

D|------------------------------

A|------------------------------

E|------------------------------


 

E|------17-------------17-------------17--

B|--15------15-----14------14-----12------

G|--14-------------14-------------12------

D|----------------------------------------

A|----------------------------------------

E|----------------------------------------


 

-E|---------12------------------------

B|--16\14------14\12p10--12--10------

G|-------------------------------12--

D|-----------------------------------

A|-----------------------------------

E|----------------------------------


 

E|------17-------------17-----------------

B|--15------15-----14------14-----12------

G|--14-------------14-------------12------

D|----------------------------------------

A|----------------------------------------

E|----------------------------------------









 

E|------------------------------------------------------14--

B|----------------------12--12--14--14--15--15--17--17------

G|------12--12--14--14--------------------------------------

D|--12------------------------------------------------------

A|----------------------------------------------------------

E|----------------------------------------------------------


 

E|------17------17------15----------15------

B|----------14--------------12----------12--

G|--14--------------12----------12----------

D|------------------------------------------

A|------------------------------------------

E|------------------------------------------


 

E|----------17----------17----------17------------------15----------15----------15----------

B|--------------15----------15----------15------------------15----------15----------15------

G|--14--14----------14----------14----------14--14--14----------14----------14----------14--

D|------------------------------------------------------------------------------------------

A|------------------------------------------------------------------------------------------

E|------------------------------------------------------------------------------------------

 

YOU CAN FEEL GOOD!  GOOD! GOOD ABOUT HOOD!

PETTI MUSIC STUDIOS

  • YouTube
  • Spotify Social Icon
  • Bandcamp Social Icon
  • White Amazon Icon
  • Facebook
  • Instagram