GRANT GREEN

WINDJAMMER - LIVE AT THE LIGHTHOUSE

(/) Slide Up  (\) Slide Down  (h) Hammer On  (p) Pull Off  (b) Bend (r) Release (v) Vibrato

 

--------------------------------------------------------------------------------------

--------------------------------------------------------------------------------------

LEAD GUITAR

--------------------------------------------------------------------------------------

--------------------------------------------------------------------------------------

(/) Slide Up  (\) Slide Down  (h) Hammer On  (p) Pull Off  (b) Bend (r) Release (v) Vibrato

 

Guitar: Part 1

 

E|-------------------------------------------------------------------------------------

B|-----9-------------------------------------------------------------------------------

G|-----------------5--6--7-------------------------------------------------------------

D|--------------------------------9\8--7--6--------6--5-----------5--6p5--6p5--6p5-----

A|-------------------------------------------------------8--------------------------8--

E|-------------------------------------------------------------------------------------

                                VAMP Bb7  or Bb9

Guitar: Part 2

 

E|--------------------------------------------------------------------------------------

B|-----6--4-----------------------------------------------------------------------------

G|--------------5--3-----------3--------------------------------------------------------

D|-----------------------3--6-----------3--6--6-----------------------------------------

A|--------------------------------------------------------------------------------------

E|--------------------------------------------------------------------------------------

                     Ab13

--------------------------------------------------------------------------------------

--------------------------------------------------------------------------------------

LEAD SAX

--------------------------------------------------------------------------------------

--------------------------------------------------------------------------------------

Sax: Part 1

 

E|--------------------------------------------------------------------------------------------

B|-----6-----------4--5--6--------------------------------------------------------------------

G|-----------------------------------5--6--7--------------------------------------------------

D|--------------------------------------------------6--5-----------5--6p5--6p5--6p5-----------

A|----------------------------------------------------------8--------------------------8------

E|--------------------------------------------------------------------------------------------

--------------------------------------------------------------------------------------

--------------------------------------------------------------------------------------

BASS

--------------------------------------------------------------------------------------

--------------------------------------------------------------------------------------

Bass: Part 1

E|--------------------------------------------------------------------------

B|--------------------------------------------------------------------------

G|--------------------------------------------------------------------------

D|-----------8--8--------6--8--------------8--8--------6--------------------

A|--------------------8-----------------------------8-----6--7--8-----8--6--

E|--6--6-----------------------------6--6-----------------------------------

 

Bass: Part 2 

E|--------------------

B|--------------------

G|--------------------

D|--------------------

A|--------------------

E|--4--4--------4--4--

PETTI MUSIC STUDIOS

  • YouTube
  • Spotify Social Icon
  • Bandcamp Social Icon
  • White Amazon Icon
  • Facebook
  • Instagram