GRANT GREEN

WALK IN THE NIGHT - LIVE AT THE LIGHTHOUSE

(/) Slide Up  (\) Slide Down  (h) Hammer On  (p) Pull Off  (b) Bend (r) Release (v) Vibrato

 

--------------------------------------------------------------------------------------

--------------------------------------------------------------------------------------

                                     LEAD GUITAR

--------------------------------------------------------------------------------------

--------------------------------------------------------------------------------------

Guitar Lead: Part 1

 

E|--------------------------------------------------------------------------------------------

B|--------------------------------------------------------------------------------------------

G|-----8--------------------------------------------6--8--------------------------------------

D|--------9--6--------------6--10\9--6--------9--6--------------------------------------------

A|-----------------------9--------------------------------------------------------------------

E|--------------------------------------------------------------------------------------------

                        VAMP ON C#min9

 

Chords: Part 2:  F#maj7 -->  Fmin7      Grant Solos in F# Lydian

 

E|----------------------------------------

B|--------11--------------9---------------

G|--------10--------------8---------------

D|--------11--------------10--------------

A|--------9---------------8---------------

E|----------------------------------------

       F#maj7         Fmin7

E|--------------------------------------------

B|--------11--------------9--------------7----

G|--------10--------------8--------------6----

D|--------11--------------10-------------8----

A|--------9---------------8--------------6----

E|--------------------------------------------

       F#maj7         Fmin7       Ebmin7

 

Grant Guitar Nuggets after Part 2 @1:45 on Live at the Lighthouse

Nugget 1:

E|-----------------------------------------------

B|-----7--7--5--5--4-----------9--9--12--12--11--

G|-----------------------------------------------

D|-----------------------------------------------

A|-----------------------------------------------

E|-----------------------------------------------

 

Nugget 2: 

E|-------------------------------------------------------------------

B|-----9--9--9---------9---------------------------------------------

G|--------------11--------9---------------------------9--------------

D|---------------------------11--9--------11--11--11-----------------

A|-------------------------------------------------------------------

E|-------------------------------------------------------------------

 

Nugget 3: 

E|-----------------------------------------------

B|-----------9-----------------------------------

G|-----9/11--------11\9--6--------------6--8--6--

D|--------------------------------6--9-----------

A|-----------------------------------------------

E|-----------------------------------------------

 

Nugget 4:

E|------------9-------------------------

B|-----9--12--------------12--9------9--

G|-------------------------------11-----

D|--------------------------------------

A|--------------------------------------

E|--------------------------------------

--------------------------------------------------------------------------------------

--------------------------------------------------------------------------------------

                                     LEAD SAX

--------------------------------------------------------------------------------------

--------------------------------------------------------------------------------------

Sax Lead: Part 1

 

E|-----11---------------------7-----------7-----7--9-----------------------------------------

B|---------12--9--------7--9-----9-----------9-----------------------------------------------

G|-------------------------------------------------------------------------------------------

D|-------------------------------------------------------------------------------------------

A|-------------------------------------------------------------------------------------------

E|-------------------------------------------------------------------------------------------

                        VAMP ON C#min9

Sax Lead: Part 2

 

E|--------13--------11--16--13--11-----------13--------11--16--13--11--------9-------

B|-----------------------------------------------------------------------------------

G|-----------------------------------------------------------------------------------

D|-----------------------------------------------------------------------------------

A|-----------------------------------------------------------------------------------

E|-----------------------------------------------------------------------------------

        F#maj7         Fmin7             F#maj7         Fmin7      Ebmin7

 

PETTI MUSIC STUDIOS

  • YouTube
  • Spotify Social Icon
  • Bandcamp Social Icon
  • White Amazon Icon
  • Facebook
  • Instagram