GRANT GREEN

JAN JAN - LIVE AT THE LIGHTHOUSE

(/) Slide Up  (\) Slide Down  (h) Hammer On  (p) Pull Off  (b) Bend (r) Release (v) Vibrato

 

--------------------------------------------------------------------------------------

--------------------------------------------------------------------------------------

RHYTHM - ORGANS/VIBE

--------------------------------------------------------------------------------------

--------------------------------------------------------------------------------------

Vibes and Driving Riff

 

E|-------------------------------------------

B|-------------------------------------------

G|-------------------------8--8--------------

D|-----8--8-----10--10-----------------------

A|-------------------------------------------

E|-------------------------------------------

                               VAMP ON C7#9

 

Chords for Organ/Vibes

 

E|-----1--------1--2--3--4-----------6-----6--7--8--9---------

B|-----1--------1--2--3--4-----------6-----6--7--8--9---------

G|-----2--------2--3--4--5-----------7-----7--8--9--10--------

D|------------------------------------------------------------

A|------------------------------------------------------------

E|------------------------------------------------------------

      F       F  F# G G#         A#    A# B C C#

-------------------------------------------------------------------------------------

-------------------------------------------------------------------------------------

LEAD GUITAR / SAX

-------------------------------------------------------------------------------------

-------------------------------------------------------------------------------------

Lead Guitar & Sax: Part 1

 

E|---------6----------------------------------8------------------------

B|-----/8---------------------------------/8---------------------------

G|---------------------11\10-----8------------------------11\10-----8--

D|---------------------------------------------------------------------

A|---------------------------------------------------------------------

E|---------------------------------------------------------------------

                                                               VAMP ON C7#9 

Lead Guitar & Sax: Part 1 (continued)

 

E|---------6----------------------8--------------------------------------------------------------------

B|-----/8---------------------/8-----------------------------------------------------------------------

G|---------------11\10--8---------------11--10--8----------------------8--8----------------------8--8--

D|-------------------------------------------------------8--8--10--10--------------8--8--10--10--------

A|-----------------------------------------------------------------------------------------------------

E|-----------------------------------------------------------------------------------------------------

                                                             VAMP ON C7#9

 

Lead Guitar & Sax: Part 2

 

E|-------------------------------------------------------------------------------------

B|-----6-----6--7--8--9-----9p6--------6------------------------11-----11--12--13--14--

G|-------------------------------8--------8p6-----8p6----------------------------------

D|-----------------------------------------------------8-------------------------------

A|-------------------------------------------------------------------------------------

E|-------------------------------------------------------------------------------------

      F     F  F# G G#                                   A#    A#  B  C  C#

-------------------------------------------------------------------------------------

-------------------------------------------------------------------------------------

BASS

-------------------------------------------------------------------------------------

-------------------------------------------------------------------------------------

Bass: Part 1

 

E|----------------------------------

B|----------------------------------

G|----------------------------------

D|----------------------------------

A|------------8--9--10--------------

E|--8--8--11------------------------

 

Bass: Part 2

 

E|-----------------------------------------------------

B|-----------------------------------------------------

G|-----------------------------------------------------

D|-----------------------------------------------------

A|-----------------------------------------------------

E|--1-----1--2--3--4-----------6-----6--7--8--9--------

PETTI MUSIC STUDIOS

  • YouTube
  • Spotify Social Icon
  • Bandcamp Social Icon
  • White Amazon Icon
  • Facebook
  • Instagram