GRANT GREEN

FLOOD IN FRANKLIN PARK - LIVE AT THE LIGHTHOUSE

(/) Slide Up  (\) Slide Down  (h) Hammer On  (p) Pull Off  (b) Bend (r) Release (v) Vibrato

 

--------------------------------------------------------------------------------------

--------------------------------------------------------------------------------------

                                     LEAD GUITAR

--------------------------------------------------------------------------------------

--------------------------------------------------------------------------------------

(/) Slide Up  (\) Slide Down  (h) Hammer On  (p) Pull Off  (b) Bend (r) Release (v) Vibrato

 

Guitar Part 1

E|--------------------------------------------------------------------------------

B|--/13--12p10--12p10--12p10------------------------------------------------------

G|----------------------------12p10\9---------------------------------------------

D|-------------------------------------12--10\9--7--------------------------------

A|--------------------------------------------------------------------------------

E|--------------------------------------------------------------------------------

                   Dmin9 

Guitar Part 2 

E|----------------------------------------------------------------------

B|-----/12--10------10------10------------------------------------------

G|--------------12------12------12-----10--9----------------------------

D|--------------------------------------------12-----10--9-----7-----9--

A|----------------------------------------------------------------------

E|----------------------------------------------------------------------

                       G13  

 

Guitar + Sax Part 3

E|--------------8--8--------------8--------------------6--6--------------6--

B|-----8-----8-----------8-----8--------------6-----6-----------6-----6-----

G|--------7-----------------7--------------------5-----------------5--------

D|--------------------------------------------------------------------------

A|--------------------------------------------------------------------------

E|--------------------------------------------------------------------------

       Bb13                                Ab13

 

Guitar + Sax Part 3 (continued) 

E|--------------8--8-------------------------------------------------------

B|-----8-----8--------10------------------------------5-----3--------------

G|--------7---------------------------4--7--7--4-----/4-----2--------------

D|---------------------------------7---------------------------------------

A|-------------------------------------------------------------------------

E|-------------------------------------------------------------------------

       Bb13        A13                         Dmin7

--------------------------------------------------------------------------------------

--------------------------------------------------------------------------------------

                                     LEAD SAX

--------------------------------------------------------------------------------------

--------------------------------------------------------------------------------------

Sax Part 1

E|-------------------------------------------------------------

B|-----/10--8--6--8--6-----8--6-----5--------------------------

G|-------------------------------------7--5-----4--------------

D|-------------------------------------------------7--5-----3--

A|-------------------------------------------------------------

E|-------------------------------------------------------------

                         Dmin9             

Sax Part 2 

E|---------------------------------------------------------------

B|-----/8-----6--5--6--5-----6--5--------------------------------

G|------------------------------------7--5--4--------------------

D|------------------------------------------------7--5--3-----5--

A|---------------------------------------------------------------

E|---------------------------------------------------------------

                       G13  

Guitar + Sax Part 3 

E|--------------8--8--------------8--------------------6--6--------------6--

B|-----8-----8-----------8-----8--------------6-----6-----------6-----6-----

G|--------7-----------------7--------------------5-----------------5--------

D|--------------------------------------------------------------------------

A|--------------------------------------------------------------------------

E|--------------------------------------------------------------------------

       Bb13                                Ab13

Guitar + Sax Part 3 (continued) 

E|--------------8--8-------------------------------------------------------

B|-----8-----8--------10------------------------------5-----3--------------

G|--------7---------------------------4--7--7--4-----/4-----2--------------

D|---------------------------------7---------------------------------------

A|-------------------------------------------------------------------------

E|-------------------------------------------------------------------------

       Bb13        A13                         Dmin7

PETTI MUSIC STUDIOS

  • YouTube
  • Spotify Social Icon
  • Bandcamp Social Icon
  • White Amazon Icon
  • Facebook
  • Instagram