GRANT GREEN

FANCY FREE - LIVE AT THE LIGHTHOUSE

(/) Slide Up  (\) Slide Down  (h) Hammer On  (p) Pull Off  (b) Bend (r) Release (v) Vibrato

 

--------------------------------------------------------------------------------------

--------------------------------------------------------------------------------------

LEAD GUITAR AND SAX

--------------------------------------------------------------------------------------

--------------------------------------------------------------------------------------

(/) Slide Up  (\) Slide Down  (h) Hammer On  (p) Pull Off  (b) Bend (r) Release (v) Vibrato

 

Stave 1:

 

E|-------------------------------------------------------

B|-------------------------------------------------------

G|-------------9------------------------------12---------

D|---------10-----12------------------------------9------

A|-----12--------------------------------------------12--

E|-------------------------------------------------------

                   Dmin9/G    G13         

Stave 2:

 

E|-------------------------------------------------------

B|-------------------------------------------------------

G|-------------------------------------------------------

D|---------10-------------------------------------7------

A|-----12-----------------------------------7--8-----10--

E|-------------12--10------------------------------------

                   Dmin9/G    G13          

Stave 3:

 

E|---------------------------------------------

B|---------------------------------------------

G|--------------12-----------------15----------

D|----------15-------------------------12------

A|------15---------------------------------15--

E|--13-----------------------------------------

                   Fmin9/Bb    Bb13              

 

Stave 4:

 

E|----------------------------------------------------------

B|----------------------------------------------------------

G|----------------------------------------------------------

D|------13--------------------------------------------------

A|--15----------------------------------------------15--13--

E|----------15--13--------------------------15--16----------

                   Fmin9/Bb    Bb13             

 

 

REPEAT Stave 1 and 2

 

Stave 6:

 

E|---------------------------------------------

B|---------------------------------------------

G|-----------------------------------------12--

D|-------------13--15--------------13--15------

A|---------15----------------------------------

E|-----15--------------------------------------

                   Fmin9/Bb    Bb13            

 

Stave 7:

 

E|------------------------------------------------------------

B|------------------------------------------------------------

G|------------------------------------------------------------

D|--15--13--12h13p12------------------------------15----------

A|--------------------------------------------15------15------

E|--------------------------------------------------------15--

                   Fmin9/Bb    Bb13         

 

Stave 8:

 

E|------------------------------------------------------------------------------------------

B|--------------------------------------15--15-----15--15-----15--15-----15--11p10----------

G|----------------------------------------------------------------------------------12--10--

D|--12--12--------12--12-----12--12---------------------------------------------------------

A|------------------------------------------------------------------------------------------

E|------------------------------------------------------------------------------------------

     Bbmaj7                               Ebmaj7

 

Stave 9:

 

E|-----------------------------------------------------------------------

B|--------------------------------------15--15-----15--15--------15--15--

G|-----------------------------------------------------------------------

D|--12--12--------12--12-----12--12--------------------------------------

A|-----------------------------------------------------------------------

E|-----------------------------------------------------------------------

     Bbmaj7                               Ebmaj7

Stave 10:

 

E|-----11h13----------------12h13---------------------12h13---------------------------

B|------------15--------13---------15--13--15-----13------------15p13h15--------------

G|------------------------------------------------------------------------------------

D|------------------------------------------------------------------------------------

A|------------------------------------------------------------------------------------

E|------------------------------------------------------------------------------------

       D7#9

Stave 11:

 

E|-------------------------

B|-----15--13--------------

G|-------------15------14--

D|-----------------16------

A|-------------------------

E|-------------------------

PETTI MUSIC STUDIOS

  • YouTube
  • Spotify Social Icon
  • Bandcamp Social Icon
  • White Amazon Icon
  • Facebook
  • Instagram